  0
SECTION
  2
HEADER
  9
$ACADVER
  1
AC1015
  9
$ACADMAINTVER
 70
     6
  9
$DWGCODEPAGE
  3
ANSI_1254
  9
$INSBASE
 10
0.0
 20
0.0
 30
0.0
  9
$EXTMIN
 10
0.0
 20
0.0
 30
0.0
  9
$EXTMAX
 10
279.4
 20
215.9
 30
0.0
  9
$LIMMIN
 10
0.0
 20
0.0
  9
$LIMMAX
 10
279.4
 20
215.9
  9
$ORTHOMODE
 70
     0
  9
$REGENMODE
 70
     1
  9
$FILLMODE
 70
     1
  9
$QTEXTMODE
 70
     0
  9
$MIRRTEXT
 70
     1
  9
$LTSCALE
 40
1.0
  9
$ATTMODE
 70
     1
  9
$TEXTSIZE
 40
3.5
  9
$TRACEWID
 40
1.0
  9
$TEXTSTYLE
  7
Standard
  9
$CLAYER
  8
0
  9
$CELTYPE
  6
ByLayer
  9
$CECOLOR
 62
   256
  9
$CELTSCALE
 40
1.0
  9
$DISPSILH
 70
     0
  9
$DIMSCALE
 40
1.0
  9
$DIMASZ
 40
3.5
  9
$DIMEXO
 40
1.0
  9
$DIMDLI
 40
3.75
  9
$DIMRND
 40
0.0
  9
$DIMDLE
 40
0.0
  9
$DIMEXE
 40
1.0
  9
$DIMTP
 40
0.0
  9
$DIMTM
 40
0.0
  9
$DIMTXT
 40
3.5
  9
$DIMCEN
 40
2.5
  9
$DIMTSZ
 40
0.0
  9
$DIMTOL
 70
     0
  9
$DIMLIM
 70
     0
  9
$DIMTIH
 70
     1
  9
$DIMTOH
 70
     1
  9
$DIMSE1
 70
     0
  9
$DIMSE2
 70
     0
  9
$DIMTAD
 70
     1
  9
$DIMZIN
 70
     0
  9
$DIMBLK
  1

  9
$DIMASO
 70
     1
  9
$DIMSHO
 70
     1
  9
$DIMPOST
  1

  9
$DIMAPOST
  1

  9
$DIMALT
 70
     0
  9
$DIMALTD
 70
     3
  9
$DIMALTF
 40
0.0393700787
  9
$DIMLFAC
 40
1.0
  9
$DIMTOFL
 70
     1
  9
$DIMTVP
 40
0.0
  9
$DIMTIX
 70
     0
  9
$DIMSOXD
 70
     0
  9
$DIMSAH
 70
     0
  9
$DIMBLK1
  1

  9
$DIMBLK2
  1

  9
$DIMSTYLE
  2
ISO-25
  9
$DIMCLRD
 70
     0
  9
$DIMCLRE
 70
     0
  9
$DIMCLRT
 70
     0
  9
$DIMTFAC
 40
1.0
  9
$DIMGAP
 40
1.524
  9
$DIMJUST
 70
     0
  9
$DIMSD1
 70
     0
  9
$DIMSD2
 70
     0
  9
$DIMTOLJ
 70
     0
  9
$DIMTZIN
 70
     0
  9
$DIMALTZ
 70
     0
  9
$DIMALTTZ
 70
     0
  9
$DIMUPT
 70
     0
  9
$DIMDEC
 70
     2
  9
$DIMTDEC
 70
     2
  9
$DIMALTU
 70
     2
  9
$DIMALTTD
 70
     3
  9
$DIMTXSTY
  7
Standard
  9
$DIMAUNIT
 70
     0
  9
$DIMADEC
 70
     2
  9
$DIMALTRND
 40
0.0
  9
$DIMAZIN
 70
     0
  9
$DIMDSEP
 70
    44
  9
$DIMATFIT
 70
     3
  9
$DIMFRAC
 70
     0
  9
$DIMLDRBLK
  1

  9
$DIMLUNIT
 70
     2
  9
$DIMLWD
 70
    -2
  9
$DIMLWE
 70
    -2
  9
$DIMTMOVE
 70
     0
  9
$LUNITS
 70
     2
  9
$LUPREC
 70
     2
  9
$SKETCHINC
 40
1.0
  9
$FILLETRAD
 40
10.0
  9
$AUNITS
 70
     0
  9
$AUPREC
 70
     2
  9
$MENU
  1
.
  9
$ELEVATION
 40
0.0
  9
$PELEVATION
 40
0.0
  9
$THICKNESS
 40
0.0
  9
$LIMCHECK
 70
     0
  9
$CHAMFERA
 40
0.0
  9
$CHAMFERB
 40
0.0
  9
$CHAMFERC
 40
0.0
  9
$CHAMFERD
 40
0.0
  9
$SKPOLY
 70
     0
  9
$TDCREATE
 40
2460704.460209445
  9
$TDUCREATE
 40
2460704.335209445
  9
$TDUPDATE
 40
2460704.460209629
  9
$TDUUPDATE
 40
2460704.335209629
  9
$TDINDWG
 40
0.0000000116
  9
$TDUSRTIMER
 40
0.0000000116
  9
$USRTIMER
 70
     1
  9
$ANGBASE
 50
0.0
  9
$ANGDIR
 70
     0
  9
$PDMODE
 70
     0
  9
$PDSIZE
 40
-1.0
  9
$PLINEWID
 40
0.0
  9
$SPLFRAME
 70
     0
  9
$SPLINETYPE
 70
     6
  9
$SPLINESEGS
 70
     8
  9
$HANDSEED
  5
B6
  9
$SURFTAB1
 70
     6
  9
$SURFTAB2
 70
     6
  9
$SURFTYPE
 70
     6
  9
$SURFU
 70
     6
  9
$SURFV
 70
     6
  9
$UCSBASE
  2

  9
$UCSNAME
  2

  9
$UCSORG
 10
0.0
 20
0.0
 30
0.0
  9
$UCSXDIR
 10
1.0
 20
0.0
 30
0.0
  9
$UCSYDIR
 10
0.0
 20
1.0
 30
0.0
  9
$UCSORTHOREF
  2

  9
$UCSORTHOVIEW
 70
     0
  9
$UCSORGTOP
 10
0.0
 20
0.0
 30
0.0
  9
$UCSORGBOTTOM
 10
0.0
 20
0.0
 30
0.0
  9
$UCSORGLEFT
 10
0.0
 20
0.0
 30
0.0
  9
$UCSORGRIGHT
 10
0.0
 20
0.0
 30
0.0
  9
$UCSORGFRONT
 10
0.0
 20
0.0
 30
0.0
  9
$UCSORGBACK
 10
0.0
 20
0.0
 30
0.0
  9
$PUCSBASE
  2

  9
$PUCSNAME
  2

  9
$PUCSORG
 10
0.0
 20
0.0
 30
0.0
  9
$PUCSXDIR
 10
1.0
 20
0.0
 30
0.0
  9
$PUCSYDIR
 10
0.0
 20
1.0
 30
0.0
  9
$PUCSORTHOREF
  2

  9
$PUCSORTHOVIEW
 70
     0
  9
$PUCSORGTOP
 10
0.0
 20
0.0
 30
0.0
  9
$PUCSORGBOTTOM
 10
0.0
 20
0.0
 30
0.0
  9
$PUCSORGLEFT
 10
0.0
 20
0.0
 30
0.0
  9
$PUCSORGRIGHT
 10
0.0
 20
0.0
 30
0.0
  9
$PUCSORGFRONT
 10
0.0
 20
0.0
 30
0.0
  9
$PUCSORGBACK
 10
0.0
 20
0.0
 30
0.0
  9
$USERI1
 70
     0
  9
$USERI2
 70
     0
  9
$USERI3
 70
     0
  9
$USERI4
 70
     0
  9
$USERI5
 70
     0
  9
$USERR1
 40
0.0
  9
$USERR2
 40
0.0
  9
$USERR3
 40
0.0
  9
$USERR4
 40
0.0
  9
$USERR5
 40
0.0
  9
$WORLDVIEW
 70
     1
  9
$SHADEDGE
 70
     3
  9
$SHADEDIF
 70
    70
  9
$TILEMODE
 70
     1
  9
$MAXACTVP
 70
    64
  9
$PINSBASE
 10
0.0
 20
0.0
 30
0.0
  9
$PLIMCHECK
 70
     0
  9
$PEXTMIN
 10
1.0000000000E+20
 20
1.0000000000E+20
 30
1.0000000000E+20
  9
$PEXTMAX
 10
-1.0000000000E+20
 20
-1.0000000000E+20
 30
-1.0000000000E+20
  9
$PLIMMIN
 10
0.0
 20
0.0
  9
$PLIMMAX
 10
420.0
 20
297.0
  9
$UNITMODE
 70
     0
  9
$VISRETAIN
 70
     1
  9
$PLINEGEN
 70
     0
  9
$PSLTSCALE
 70
     1
  9
$TREEDEPTH
 70
  3020
  9
$CMLSTYLE
  2
Standard
  9
$CMLJUST
 70
     0
  9
$CMLSCALE
 40
20.0
  9
$PROXYGRAPHICS
 70
     1
  9
$MEASUREMENT
 70
     1
  9
$CELWEIGHT
370
    -1
  9
$ENDCAPS
280
     0
  9
$JOINSTYLE
280
     0
  9
$LWDISPLAY
290
     1
  9
$INSUNITS
 70
     4
  9
$HYPERLINKBASE
  1

  9
$STYLESHEET
  1

  9
$XEDIT
290
     1
  9
$CEPSNTYPE
380
     0
  9
$PSTYLEMODE
290
     1
  9
$FINGERPRINTGUID
  2
{d1b9d57c-96e5-4e48-be05-9f0f36340d6d}
  9
$VERSIONGUID
  2
{FAEB1C32-E019-11D5-929B-00C0DF256EC4}
  9
$EXTNAMES
290
     1
  9
$PSVPSCALE
 40
0.0
  9
$OLESTARTUP
290
     0
  0
ENDSEC
  0
SECTION
  2
CLASSES
  0
CLASS
  1
ACDBDICTIONARYWDFLT
  2
AcDbDictionaryWithDefault
  3
ObjectDBX Classes
 90
        0
280
     0
281
     0
  0
CLASS
  1
VISUALSTYLE
  2
AcDbVisualStyle
  3
ObjectDBX Classes
 90
     4095
280
     0
281
     0
  0
CLASS
  1
MATERIAL
  2
AcDbMaterial
  3
ObjectDBX Classes
 90
     1153
280
     0
281
     0
  0
CLASS
  1
SCALE
  2
AcDbScale
  3
ObjectDBX Classes
 90
     1153
280
     0
281
     0
  0
CLASS
  1
TABLESTYLE
  2
AcDbTableStyle
  3
ObjectDBX Classes
 90
     4095
280
     0
281
     0
  0
CLASS
  1
MLEADERSTYLE
  2
AcDbMLeaderStyle
  3
ACDB_MLEADERSTYLE_CLASS
 90
     4095
280
     0
281
     0
  0
CLASS
  1
SUN
  2
AcDbSun
  3
SCENEOE
 90
     1153
280
     0
281
     0
  0
CLASS
  1
ACDBPLACEHOLDER
  2
AcDbPlaceHolder
  3
ObjectDBX Classes
 90
        0
280
     0
281
     0
  0
CLASS
  1
LAYOUT
  2
AcDbLayout
  3
ObjectDBX Classes
 90
        0
280
     0
281
     0
  0
ENDSEC
  0
SECTION
  2
TABLES
  0
TABLE
  2
VPORT
  5
8
330
0
100
AcDbSymbolTable
 70
     1
  0
VPORT
  5
29
330
8
100
AcDbSymbolTableRecord
100
AcDbViewportTableRecord
  2
*Active
 70
     0
 10
0.0
 20
0.0
 11
1.0
 21
1.0
 12
139.7
 22
107.95
 13
0.0
 23
0.0
 14
10.0
 24
10.0
 15
10.0
 25
10.0
 16
0.0
 26
0.0
 36
1.0
 17
0.0
 27
0.0
 37
0.0
 40
215.9
 41
1.2941176471
 42
50.0
 43
0.0
 44
0.0
 50
0.0
 51
0.0
 71
     0
 72
  2000
 73
     1
 74
     3
 75
     0
 76
     0
 77
     0
 78
     0
281
     0
 65
     1
110
0.0
120
0.0
130
0.0
111
1.0
121
0.0
131
0.0
112
0.0
122
1.0
132
0.0
 79
     0
146
0.0
  0
ENDTAB
  0
TABLE
  2
LTYPE
  5
5
330
0
100
AcDbSymbolTable
 70
     6
  0
LTYPE
  5
14
330
5
100
AcDbSymbolTableRecord
100
AcDbLinetypeTableRecord
  2
ByBlock
 70
     0
  3

 72
    65
 73
     0
 40
0.0
  0
LTYPE
  5
15
330
5
100
AcDbSymbolTableRecord
100
AcDbLinetypeTableRecord
  2
ByLayer
 70
     0
  3

 72
    65
 73
     0
 40
0.0
  0
LTYPE
  5
16
330
5
100
AcDbSymbolTableRecord
100
AcDbLinetypeTableRecord
  2
Continuous
 70
     0
  3
Solid line
 72
    65
 73
     0
 40
0.0
  0
LTYPE
  5
6E
330
5
100
AcDbSymbolTableRecord
100
AcDbLinetypeTableRecord
  2
HIDDEN
 70
     0
  3
Hidden __ __ __ __ __ __ __ __ __ __ __ __ __ __
 72
    65
 73
     2
 40
1.905
 49
1.27
 74
     0
 49
-0.635
 74
     0
  0
LTYPE
  5
6F
330
5
100
AcDbSymbolTableRecord
100
AcDbLinetypeTableRecord
  2
PHANTOM
 70
     0
  3
Phantom ______  __  __  ______  __  __  ______
 72
    65
 73
     6
 40
12.7
 49
6.35
 74
     0
 49
-1.27
 74
     0
 49
1.27
 74
     0
 49
-1.27
 74
     0
 49
1.27
 74
     0
 49
-1.27
 74
     0
  0
LTYPE
  5
70
330
5
100
AcDbSymbolTableRecord
100
AcDbLinetypeTableRecord
  2
CENTER
 70
     0
  3
Center ____ _ ____ _ ____ _ ____ _ ____ _ ____
 72
    65
 73
     4
 40
10.16
 49
6.35
 74
     0
 49
-1.27
 74
     0
 49
1.27
 74
     0
 49
-1.27
 74
     0
  0
LTYPE
  5
71
330
5
100
AcDbSymbolTableRecord
100
AcDbLinetypeTableRecord
  2
CENTERX2
 70
     0
  3
Center (2x) ________  __  ________  __  _____
 72
    65
 73
     4
 40
20.32
 49
12.7
 74
     0
 49
-2.54
 74
     0
 49
2.54
 74
     0
 49
-2.54
 74
     0
  0
LTYPE
  5
72
330
5
100
AcDbSymbolTableRecord
100
AcDbLinetypeTableRecord
  2
DOT2
 70
     0
  3
Dot (.5x) ........................................
 72
    65
 73
     2
 40
0.635
 49
0.0
 74
     0
 49
-0.635
 74
     0
  0
ENDTAB
  0
TABLE
  2
LAYER
  5
2
330
0
100
AcDbSymbolTable
 70
    17
  0
LAYER
  5
10
330
2
100
AcDbSymbolTableRecord
100
AcDbLayerTableRecord
  2
0
 70
     0
 62
     7
  6
Continuous
370
    -3
390
F
  0
LAYER
  5
73
330
2
100
AcDbSymbolTableRecord
100
AcDbLayerTableRecord
  2
FORMAT
 70
     0
 62
     7
  6
Continuous
370
    -3
390
F
  0
LAYER
  5
74
330
2
100
AcDbSymbolTableRecord
100
AcDbLayerTableRecord
  2
YARDIMCI_GEOMETRI
 70
     0
 62
    -6
  6
Continuous
290
     0
370
    -3
390
F
  0
LAYER
  5
75
330
2
100
AcDbSymbolTableRecord
100
AcDbLayerTableRecord
  2
SAYFA_CERCEVESI
 70
     0
 62
     7
  6
Continuous
370
    25
390
F
  0
LAYER
  5
76
330
2
100
AcDbSymbolTableRecord
100
AcDbLayerTableRecord
  2
ANTET
 70
     0
 62
     7
  6
Continuous
370
    -3
390
F
  0
LAYER
  5
77
330
2
100
AcDbSymbolTableRecord
100
AcDbLayerTableRecord
  2
OLCU
 70
     0
 62
   150
  6
Continuous
370
    -3
390
F
  0
LAYER
  5
78
330
2
100
AcDbSymbolTableRecord
100
AcDbLayerTableRecord
  2
METIN
 70
     0
 62
    96
  6
Continuous
370
    -3
390
F
  0
LAYER
  5
79
330
2
100
AcDbSymbolTableRecord
100
AcDbLayerTableRecord
  2
BALON
 70
     0
 62
     5
  6
Continuous
370
    -3
390
F
  0
LAYER
  5
7A
330
2
100
AcDbSymbolTableRecord
100
AcDbLayerTableRecord
  2
VURGU
 70
     0
 62
     7
  6
Continuous
370
    -3
390
F
  0
LAYER
  5
7B
330
2
100
AcDbSymbolTableRecord
100
AcDbLayerTableRecord
  2
SILIK
 70
     0
 62
     7
  6
Continuous
370
    -3
390
F
  0
LAYER
  5
7C
330
2
100
AcDbSymbolTableRecord
100
AcDbLayerTableRecord
  2
MODEL
 70
     0
 62
     7
  6
Continuous
370
    -3
390
F
  0
LAYER
  5
7D
330
2
100
AcDbSymbolTableRecord
100
AcDbLayerTableRecord
  2
DETAYLANDıRMA
 70
     0
 62
   190
  6
Continuous
370
    -3
390
F
  0
LAYER
  5
7E
330
2
100
AcDbSymbolTableRecord
100
AcDbLayerTableRecord
  2
TOLERANS
 70
     0
 62
   230
  6
Continuous
370
    -3
390
F
  0
LAYER
  5
7F
330
2
100
AcDbSymbolTableRecord
100
AcDbLayerTableRecord
  2
MERKEZ_CIZGILERI
 70
     0
 62
    30
  6
Continuous
370
    -3
390
F
  0
LAYER
  5
80
330
2
100
AcDbSymbolTableRecord
100
AcDbLayerTableRecord
  2
KESIT-DETAY_CIZGILERI
 70
     0
 62
     7
  6
Continuous
370
    -3
390
F
  0
LAYER
  5
81
330
2
100
AcDbSymbolTableRecord
100
AcDbLayerTableRecord
  2
\U+041E\U+0421\U+0415\U+0412\U+042B\U+0415
 70
     0
 62
     7
  6
Continuous
370
    -3
390
F
  0
LAYER
  5
82
330
2
100
AcDbSymbolTableRecord
100
AcDbLayerTableRecord
  2
\U+0412\U+041E\U+0414\U+042F\U+041D\U+042B\U+0415_\U+0417\U+041D\U+0410\U+041A\U+0418
 70
     0
 62
    11
  6
Continuous
370
    -3
390
F
  0
ENDTAB
  0
TABLE
  2
STYLE
  5
3
330
0
100
AcDbSymbolTable
 70
     1
  0
STYLE
  5
11
330
3
100
AcDbSymbolTableRecord
100
AcDbTextStyleTableRecord
  2
Standard
 70
     0
 40
0.0
 41
1.0
 50
0.0
 71
     0
 42
3.5
  3
txt
  4

  0
ENDTAB
  0
TABLE
  2
VIEW
  5
6
330
0
100
AcDbSymbolTable
 70
     0
  0
ENDTAB
  0
TABLE
  2
UCS
  5
7
330
0
100
AcDbSymbolTable
 70
     0
  0
ENDTAB
  0
TABLE
  2
APPID
  5
9
330
0
100
AcDbSymbolTable
 70
     1
  0
APPID
  5
12
330
9
100
AcDbSymbolTableRecord
100
AcDbRegAppTableRecord
  2
ACAD
 70
     0
  0
ENDTAB
  0
TABLE
  2
DIMSTYLE
  5
A
330
0
100
AcDbSymbolTable
 70
     1
100
AcDbDimStyleTable
  0
DIMSTYLE
105
27
330
A
100
AcDbSymbolTableRecord
100
AcDbDimStyleTableRecord
  2
ISO-25
 70
     0
 41
2.5
 42
0.625
 43
3.75
 44
1.25
 73
     0
 74
     0
 77
     1
 78
     8
140
2.5
141
2.5
143
0.0393700787
147
0.625
171
     3
172
     1
178
     0
271
     2
272
     2
274
     3
278
    44
283
     0
284
     8
340
11
  0
ENDTAB
  0
TABLE
  2
BLOCK_RECORD
  5
1
330
0
100
AcDbSymbolTable
 70
     2
  0
BLOCK_RECORD
  5
1F
330
1
100
AcDbSymbolTableRecord
100
AcDbBlockTableRecord
  2
*Model_Space
340
22
  0
BLOCK_RECORD
  5
1B
330
1
100
AcDbSymbolTableRecord
100
AcDbBlockTableRecord
  2
*Paper_Space
340
1E
  0
BLOCK_RECORD
  5
23
330
1
100
AcDbSymbolTableRecord
100
AcDbBlockTableRecord
  2
*Paper_Space0
340
26
  0
BLOCK_RECORD
  5
85
330
1
100
AcDbSymbolTableRecord
100
AcDbBlockTableRecord
  2
SW_CENTERMARKSYMBOL_0
340
0
102
{BLKREFS
331
90
102
}
  0
ENDTAB
  0
ENDSEC
  0
SECTION
  2
BLOCKS
  0
BLOCK
  5
20
330
1F
100
AcDbEntity
  8
0
100
AcDbBlockBegin
  2
*Model_Space
 70
     0
 10
0.0
 20
0.0
 30
0.0
  3
*Model_Space
  1

  0
ENDBLK
  5
21
330
1F
100
AcDbEntity
  8
0
100
AcDbBlockEnd
  0
BLOCK
  5
1C
330
1B
100
AcDbEntity
 67
     1
  8
0
100
AcDbBlockBegin
  2
*Paper_Space
 70
     0
 10
0.0
 20
0.0
 30
0.0
  3
*Paper_Space
  1

  0
ENDBLK
  5
1D
330
1B
100
AcDbEntity
 67
     1
  8
0
100
AcDbBlockEnd
  0
BLOCK
  5
24
330
23
100
AcDbEntity
  8
0
100
AcDbBlockBegin
  2
*Paper_Space0
 70
     0
 10
0.0
 20
0.0
 30
0.0
  3
*Paper_Space0
  1

  0
ENDBLK
  5
25
330
23
100
AcDbEntity
  8
0
100
AcDbBlockEnd
  0
BLOCK
  5
86
330
85
100
AcDbEntity
  8
0
100
AcDbBlockBegin
  2
SW_CENTERMARKSYMBOL_0
 70
     0
 10
0.0
 20
0.0
 30
0.0
  3
SW_CENTERMARKSYMBOL_0
  1

  0
LINE
  5
88
330
85
100
AcDbEntity
  8
FORMAT
 62
     0
100
AcDbLine
 10
0.0
 20
0.0
 30
0.0
 11
0.0
 21
2.5
 31
0.0
  0
LINE
  5
89
330
85
100
AcDbEntity
  8
FORMAT
 62
     0
100
AcDbLine
 10
0.0
 20
0.0
 30
0.0
 11
-2.5
 21
0.0
 31
0.0
  0
LINE
  5
8A
330
85
100
AcDbEntity
  8
FORMAT
 62
     0
100
AcDbLine
 10
0.0
 20
0.0
 30
0.0
 11
0.0
 21
-2.5
 31
0.0
  0
LINE
  5
8B
330
85
100
AcDbEntity
  8
FORMAT
 62
     0
100
AcDbLine
 10
0.0
 20
0.0
 30
0.0
 11
2.5
 21
0.0
 31
0.0
  0
LINE
  5
8C
330
85
100
AcDbEntity
  8
FORMAT
 62
     0
100
AcDbLine
 10
0.0
 20
5.0
 30
0.0
 11
0.0
 21
82.5
 31
0.0
  0
LINE
  5
8D
330
85
100
AcDbEntity
  8
FORMAT
 62
     0
100
AcDbLine
 10
-5.0
 20
0.0
 30
0.0
 11
-82.5
 21
0.0
 31
0.0
  0
LINE
  5
8E
330
85
100
AcDbEntity
  8
FORMAT
 62
     0
100
AcDbLine
 10
0.0
 20
-5.0
 30
0.0
 11
0.0
 21
-82.5
 31
0.0
  0
LINE
  5
8F
330
85
100
AcDbEntity
  8
FORMAT
 62
     0
100
AcDbLine
 10
5.0
 20
0.0
 30
0.0
 11
82.5
 21
0.0
 31
0.0
  0
ENDBLK
  5
87
330
85
100
AcDbEntity
  8
0
100
AcDbBlockEnd
  0
ENDSEC
  0
SECTION
  2
ENTITIES
  0
CIRCLE
  5
83
330
1F
100
AcDbEntity
  8
0
  6
Continuous
 62
     7
370
    25
100
AcDbCircle
 10
139.3375183515
 20
105.3941789294
 30
0.0
 40
79.99999999999999
  0
CIRCLE
  5
84
330
1F
100
AcDbEntity
  8
0
  6
Continuous
 62
     7
370
    25
100
AcDbCircle
 10
139.3375183515
 20
105.3941789294
 30
0.0
 40
70.49999999999997
  0
INSERT
  5
90
330
1F
100
AcDbEntity
  8
FORMAT
 62
     7
100
AcDbBlockReference
  2
SW_CENTERMARKSYMBOL_0
 10
139.3375183515
 20
105.3941789294
 30
0.0
  0
LINE
  5
91
330
1F
100
AcDbEntity
  8
0
  6
Continuous
 62
     7
370
    25
100
AcDbLine
 10
59.3375183515
 20
-37.7874489225
 30
0.0
 11
59.3375183515
 21
-148.299742093
 31
0.0
  0
LINE
  5
92
330
1F
100
AcDbEntity
  8
0
  6
Continuous
 62
     7
370
    25
100
AcDbLine
 10
219.3375183515
 20
-148.299742093
 30
0.0
 11
219.3375183515
 21
-37.7874489225
 31
0.0
  0
ARC
  5
93
330
1F
100
AcDbEntity
  8
0
  6
Continuous
 62
     7
370
    25
100
AcDbCircle
 10
136.7722348073
 20
162.1899754298
 30
0.0
 40
319.9999999999998
100
AcDbArc
 50
255.996362897
 51
270.0
  0
ARC
  5
94
330
1F
100
AcDbEntity
  8
0
  6
Continuous
 62
     7
370
    25
100
AcDbCircle
 10
141.9028018956
 20
162.1899754298
 30
0.0
 40
319.9999999999998
100
AcDbArc
 50
270.0
 51
284.003637103
  0
LINE
  5
95
330
1F
100
AcDbEntity
  8
0
  6
Continuous
 62
     7
370
    25
100
AcDbLine
 10
136.7722348073
 20
-157.8100245702
 30
0.0
 11
141.9028018956
 21
-157.8100245702
 31
0.0
  0
LINE
  5
96
330
1F
100
AcDbEntity
  8
0
  6
Continuous
 62
     7
370
    25
100
AcDbLine
 10
139.3375183515
 20
-37.7874489225
 30
0.0
 11
219.3375183515
 21
-37.7874489225
 31
0.0
  0
LINE
  5
97
330
1F
100
AcDbEntity
  8
0
  6
Continuous
 62
     7
370
    25
100
AcDbLine
 10
59.3375183515
 20
-37.7874489225
 30
0.0
 11
139.3375183515
 21
-37.7874489225
 31
0.0
  0
LINE
  5
98
330
1F
100
AcDbEntity
  8
0
  6
Continuous
 62
     7
370
    25
100
AcDbLine
 10
139.3375183515
 20
-148.299742093
 30
0.0
 11
219.3375183515
 21
-148.299742093
 31
0.0
  0
LINE
  5
99
330
1F
100
AcDbEntity
  8
0
  6
Continuous
 62
     7
370
    25
100
AcDbLine
 10
59.3375183515
 20
-148.299742093
 30
0.0
 11
139.3375183515
 21
-148.299742093
 31
0.0
  0
LINE
  5
9A
330
1F
100
AcDbEntity
  8
0
  6
Continuous
 62
     7
370
    25
100
AcDbLine
 10
219.3375183515
 20
237.6881450319
 30
0.0
 11
219.3375183515
 21
348.2004382025
 31
0.0
  0
LINE
  5
9B
330
1F
100
AcDbEntity
  8
0
  6
Continuous
 62
     7
370
    25
100
AcDbLine
 10
59.3375183515
 20
348.2004382025
 30
0.0
 11
59.3375183515
 21
237.6881450319
 31
0.0
  0
ARC
  5
9C
330
1F
100
AcDbEntity
  8
0
  6
Continuous
 62
     7
370
    25
100
AcDbCircle
 10
141.9028018956
 20
37.7107206797
 30
0.0
 40
319.9999999999999
100
AcDbArc
 50
75.996362897
 51
90.0
  0
ARC
  5
9D
330
1F
100
AcDbEntity
  8
0
  6
Continuous
 62
     7
370
    25
100
AcDbCircle
 10
136.7722348073
 20
37.7107206797
 30
0.0
 40
319.9999999999999
100
AcDbArc
 50
90.0
 51
104.003637103
  0
LINE
  5
9E
330
1F
100
AcDbEntity
  8
0
  6
Continuous
 62
     7
370
    25
100
AcDbLine
 10
141.9028018956
 20
357.7107206797
 30
0.0
 11
136.7722348073
 21
357.7107206797
 31
0.0
  0
LINE
  5
9F
330
1F
100
AcDbEntity
  8
0
  6
Continuous
 62
     7
370
    25
100
AcDbLine
 10
219.3375183515
 20
237.6881450319
 30
0.0
 11
59.3375183515
 21
237.6881450319
 31
0.0
  0
LINE
  5
A0
330
1F
100
AcDbEntity
  8
0
  6
Continuous
 62
     7
370
    25
100
AcDbLine
 10
219.3375183515
 20
348.2004382025
 30
0.0
 11
59.3375183515
 21
348.2004382025
 31
0.0
  0
LINE
  5
A1
330
1F
100
AcDbEntity
  8
0
  6
Continuous
 62
     7
370
    25
100
AcDbLine
 10
398.4024802157
 20
185.3941789294
 30
0.0
 11
287.8901870451
 21
185.3941789294
 31
0.0
  0
LINE
  5
A2
330
1F
100
AcDbEntity
  8
0
  6
Continuous
 62
     7
370
    25
100
AcDbLine
 10
287.8901870451
 20
25.3941789294
 30
0.0
 11
398.4024802157
 21
25.3941789294
 31
0.0
  0
ARC
  5
A3
330
1F
100
AcDbEntity
  8
0
  6
Continuous
 62
     7
370
    25
100
AcDbCircle
 10
598.379904568
 20
107.9594624736
 30
0.0
 40
319.9999999999998
100
AcDbArc
 50
165.996362897
 51
180.0
  0
ARC
  5
A4
330
1F
100
AcDbEntity
  8
0
  6
Continuous
 62
     7
370
    25
100
AcDbCircle
 10
598.379904568
 20
102.8288953853
 30
0.0
 40
319.9999999999998
100
AcDbArc
 50
180.0
 51
194.003637103
  0
LINE
  5
A5
330
1F
100
AcDbEntity
  8
0
  6
Continuous
 62
     7
370
    25
100
AcDbLine
 10
278.379904568
 20
107.9594624736
 30
0.0
 11
278.379904568
 21
102.8288953853
 31
0.0
  0
LINE
  5
A6
330
1F
100
AcDbEntity
  8
0
  6
Continuous
 62
     7
370
    25
100
AcDbLine
 10
398.4024802157
 20
185.3941789294
 30
0.0
 11
398.4024802157
 21
25.3941789294
 31
0.0
  0
LINE
  5
A7
330
1F
100
AcDbEntity
  8
0
  6
Continuous
 62
     7
370
    25
100
AcDbLine
 10
287.8901870451
 20
185.3941789294
 30
0.0
 11
287.8901870451
 21
25.3941789294
 31
0.0
  0
LINE
  5
A8
330
1F
100
AcDbEntity
  8
0
  6
Continuous
 62
     7
370
    25
100
AcDbLine
 10
-122.8766387939
 20
25.3941789294
 30
0.0
 11
-12.3643456233
 21
25.3941789294
 31
0.0
  0
LINE
  5
A9
330
1F
100
AcDbEntity
  8
0
  6
Continuous
 62
     7
370
    25
100
AcDbLine
 10
-12.3643456233
 20
185.3941789294
 30
0.0
 11
-122.8766387939
 21
185.3941789294
 31
0.0
  0
ARC
  5
AA
330
1F
100
AcDbEntity
  8
0
  6
Continuous
 62
     7
370
    25
100
AcDbCircle
 10
-322.8540631461
 20
102.8288953853
 30
0.0
 40
319.9999999999999
100
AcDbArc
 50
345.996362897
 51
0.0
  0
ARC
  5
AB
330
1F
100
AcDbEntity
  8
0
  6
Continuous
 62
     7
370
    25
100
AcDbCircle
 10
-322.8540631461
 20
107.9594624736
 30
0.0
 40
319.9999999999999
100
AcDbArc
 50
0.0
 51
14.003637103
  0
LINE
  5
AC
330
1F
100
AcDbEntity
  8
0
  6
Continuous
 62
     7
370
    25
100
AcDbLine
 10
-2.8540631461
 20
102.8288953853
 30
0.0
 11
-2.8540631461
 21
107.9594624736
 31
0.0
  0
LINE
  5
AD
330
1F
100
AcDbEntity
  8
0
  6
Continuous
 62
     7
370
    25
100
AcDbLine
 10
-122.8766387939
 20
25.3941789294
 30
0.0
 11
-122.8766387939
 21
185.3941789294
 31
0.0
  0
LINE
  5
AE
330
1F
100
AcDbEntity
  8
0
  6
Continuous
 62
     7
370
    25
100
AcDbLine
 10
-12.3643456233
 20
25.3941789294
 30
0.0
 11
-12.3643456233
 21
185.3941789294
 31
0.0
  0
LINE
  5
AF
330
1F
100
AcDbEntity
  8
0
  6
Continuous
 62
     7
370
    25
100
AcDbLine
 10
278.5857590499
 20
-152.3352198514
 30
0.0
 11
356.7297509553
 21
-197.4467861517
 31
0.0
  0
LINE
  5
B0
330
1F
100
AcDbEntity
  8
0
  6
Continuous
 62
     7
370
    25
100
AcDbLine
 10
436.7232495662
 20
-58.8789681708
 30
0.0
 11
358.5792576608
 21
-13.7674018705
 31
0.0
  0
LWPOLYLINE
  5
B1
330
1F
100
AcDbEntity
  8
0
  6
Continuous
 62
     7
370
    25
100
AcDbPolyline
 90
      135
 70
   128
 43
0.0
 10
318.5825083554
 20
-148.3745758118
 10
321.2340039267
 20
-146.7721026431
 10
323.8796709354
 20
-145.0295573448
 10
326.513693631
 20
-143.1507704098
 10
329.1302818602
 20
-141.1398718193
 10
331.723683794
 20
-139.001281965
 10
334.2881985721
 20
-136.7397019314
 10
336.8181888346
 20
-134.3601031624
 10
339.3080931138
 20
-131.8677165324
 10
341.7524380596
 20
-129.2680208481
 10
344.1458504713
 20
-126.566730805
 10
346.4830691092
 20
-123.7697844248
 10
348.7589562592
 20
-120.8833300026
 10
350.9685090276
 20
-117.9137125916
 10
353.1068703379
 20
-114.8674600556
 10
355.1693396077
 20
-111.7512687186
 10
357.1513830821
 20
-108.5719886455
 10
359.0486437993
 20
-105.3366085839
 10
360.8569511684
 20
-102.0522406014
 10
362.5723301375
 20
-98.7261044516
 10
364.1910099313
 20
-95.3655117036
 10
365.7094323402
 20
-91.9778496696
 10
367.1242595424
 20
-88.5705651659
 10
368.4323814405
 20
-85.1511481435
 10
369.6309224987
 20
-81.727115223
 10
370.7172480636
 20
-78.305993172
 10
371.6889701559
 20
-74.895302359
 10
372.5439527196
 20
-71.5025402229
 10
373.2803163174
 20
-68.135164791
 10
373.8964422623
 20
-64.8005782854
 10
374.3909761758
 20
-61.5061108509
 10
374.762830965
 20
-58.259004442
 10
375.0111892123
 20
-55.0663969032
 10
375.1355049725
 20
-51.9353062789
 10
375.1355049725
 20
-48.8726153856
 10
375.0111892123
 20
-45.8850566828
 10
374.762830965
 20
-42.9791974728
 10
374.3909761758
 20
-40.1614254648
 10
373.8964422623
 20
-37.4379347333
 10
373.2803163174
 20
-34.8147121019
 10
372.5439527196
 20
-32.2975239832
 10
371.6889701559
 20
-29.8919037032
 10
370.7172480636
 20
-27.6031393372
 10
369.6309224987
 20
-25.436262086
 10
368.4323814405
 20
-23.3960352162
 10
367.1242595424
 20
-21.4869435892
 10
365.7094323402
 20
-19.7131838026
 10
364.1910099313
 20
-18.0786549655
 10
362.5723301375
 20
-16.5869501269
 10
360.8569511684
 20
-15.2413483779
 10
359.0486437993
 20
-14.0448076432
 10
357.1513830821
 20
-12.9999581789
 10
355.1693396077
 20
-12.109096791
 10
353.1068703379
 20
-11.374181786
 10
350.9685090276
 20
-10.7968286668
 10
348.7589562592
 20
-10.3783065807
 10
346.4830691092
 20
-10.1195355302
 10
344.1458504713
 20
-10.0210843501
 10
341.7524380596
 20
-10.0831694575
 10
339.3080931138
 20
-10.3056543759
 10
336.8181888346
 20
-10.6880500351
 10
334.2881985721
 20
-11.2295158465
 10
331.723683794
 20
-11.9288615508
 10
329.1302818602
 20
-12.7845498342
 10
326.513693631
 20
-13.7946997082
 10
323.8796709354
 20
-14.9570906443
 10
321.2340039267
 20
-16.2691674548
 10
318.5825083554
 20
-17.7280459101
 10
315.931012784
 20
-19.3305190788
 10
313.2853457753
 20
-21.073064377
 10
310.6513230797
 20
-22.9518513121
 10
308.0347348506
 20
-24.9627499026
 10
305.4413329168
 20
-27.1013397569
 10
302.8768181386
 20
-29.3629197904
 10
300.3468278761
 20
-31.7425185595
 10
297.8569235969
 20
-34.2349051895
 10
295.4125786512
 20
-36.8346008737
 10
293.0191662394
 20
-39.5358909168
 10
290.6819476016
 20
-42.3328372971
 10
288.4060604515
 20
-45.2192917193
 10
286.1965076831
 20
-48.1889091302
 10
284.0581463728
 20
-51.2351616663
 10
281.995677103
 20
-54.3513530033
 10
280.0136336286
 20
-57.5306330764
 10
278.1163729114
 20
-60.7660131379
 10
276.3080655423
 20
-64.0503811204
 10
274.5926865732
 20
-67.3765172703
 10
272.9740067794
 20
-70.7371100183
 10
271.4555843705
 20
-74.1247720523
 10
270.0407571683
 20
-77.5320565559
 10
268.7326352703
 20
-80.9514735783
 10
267.5340942121
 20
-84.3755064988
 10
266.4477686471
 20
-87.7966285499
 10
265.4760465548
 20
-91.2073193628
 10
264.6210639911
 20
-94.600081499
 10
263.8847003933
 20
-97.9674569309
 10
263.2685744484
 20
-101.3020434365
 10
262.7740405349
 20
-104.5965108709
 10
262.4021857458
 20
-107.8436172799
 10
262.1538274984
 20
-111.0362248186
 10
262.0295117382
 20
-114.167315443
 10
262.0295117382
 20
-117.2300063362
 10
262.1538274984
 20
-120.217565039
 10
262.4021857458
 20
-123.1234242491
 10
262.7740405349
 20
-125.941196257
 10
263.2685744484
 20
-128.6646869886
 10
263.8847003933
 20
-131.28790962
 10
264.6210639911
 20
-133.8050977386
 10
265.4760465548
 20
-136.2107180187
 10
266.4477686471
 20
-138.4994823847
 10
267.5340942121
 20
-140.6663596358
 10
268.7326352703
 20
-142.7065865056
 10
270.0407571683
 20
-144.6156781327
 10
271.4555843705
 20
-146.3894379193
 10
272.9740067794
 20
-148.0239667564
 10
274.5926865732
 20
-149.5156715949
 10
276.3080655423
 20
-150.8612733439
 10
278.1163729114
 20
-152.0578140786
 10
280.0136336286
 20
-153.1026635429
 10
281.995677103
 20
-153.9935249309
 10
284.0581463728
 20
-154.7284399358
 10
286.1965076831
 20
-155.305793055
 10
288.4060604515
 20
-155.7243151411
 10
290.6819476016
 20
-155.9830861917
 10
293.0191662394
 20
-156.0815373718
 10
295.4125786512
 20
-156.0194522644
 10
297.8569235969
 20
-155.796967346
 10
300.3468278761
 20
-155.4145716868
 10
302.8768181386
 20
-154.8731058753
 10
305.4413329168
 20
-154.1737601711
 10
308.0347348506
 20
-153.3180718877
 10
310.6513230797
 20
-152.3079220136
 10
313.2853457753
 20
-151.1455310776
 10
315.931012784
 20
-149.8334542671
 10
318.5825083554
 20
-148.3745758118
  0
LWPOLYLINE
  5
B2
330
1F
100
AcDbEntity
  8
0
  6
Continuous
 62
     7
370
    25
100
AcDbPolyline
 90
       52
 70
   128
 43
0.0
 10
396.7265002607
 20
-193.4861421121
 10
399.3779958321
 20
-191.8836689434
 10
402.0236628408
 20
-190.1411236451
 10
404.6576855364
 20
-188.2623367101
 10
407.2742737655
 20
-186.2514381196
 10
409.8676756993
 20
-184.1128482653
 10
412.4321904775
 20
-181.8512682317
 10
414.96218074
 20
-179.4716694626
 10
417.4520850192
 20
-176.9792828326
 10
419.8964299649
 20
-174.3795871484
 10
422.2898423767
 20
-171.6782971053
 10
424.6270610145
 20
-168.8813507251
 10
426.9029481646
 20
-165.9948963028
 10
429.112500933
 20
-163.0252788919
 10
431.2508622433
 20
-159.9790263559
 10
433.3133315131
 20
-156.8628350189
 10
435.2953749875
 20
-153.6835549458
 10
437.1926357047
 20
-150.4481748842
 10
439.0009430738
 20
-147.1638069017
 10
440.7163220429
 20
-143.8376707519
 10
442.3350018367
 20
-140.4770780039
 10
443.8534242456
 20
-137.0894159699
 10
445.2682514478
 20
-133.6821314662
 10
446.5763733458
 20
-130.2627144438
 10
447.774914404
 20
-126.8386815233
 10
448.861239969
 20
-123.4175594722
 10
449.8329620613
 20
-120.0068686593
 10
450.687944625
 20
-116.6141065231
 10
451.4243082228
 20
-113.2467310913
 10
452.0404341677
 20
-109.9121445857
 10
452.5349680812
 20
-106.6176771512
 10
452.9068228703
 20
-103.3705707423
 10
453.1551811177
 20
-100.1779632035
 10
453.2794968779
 20
-97.0468725791
 10
453.2794968779
 20
-93.9841816859
 10
453.1551811177
 20
-90.9966229831
 10
452.9068228703
 20
-88.0907637731
 10
452.5349680812
 20
-85.2729917651
 10
452.0404341677
 20
-82.5495010336
 10
451.4243082228
 20
-79.9262784021
 10
450.687944625
 20
-77.4090902835
 10
449.8329620613
 20
-75.0034700035
 10
448.861239969
 20
-72.7147056375
 10
447.774914404
 20
-70.5478283863
 10
446.5763733458
 20
-68.5076015165
 10
445.2682514478
 20
-66.5985098894
 10
443.8534242456
 20
-64.8247501029
 10
442.3350018367
 20
-63.1902212657
 10
440.7163220429
 20
-61.6985164272
 10
439.0009430738
 20
-60.3529146782
 10
437.1926357047
 20
-59.1563739435
 10
436.7232495662
 20
-58.8789681708
  0
LWPOLYLINE
  5
B3
330
1F
100
AcDbEntity
  8
0
  6
Continuous
 62
     7
370
    25
100
AcDbPolyline
 90
       18
 70
   128
 43
0.0
 10
356.7297509553
 20
-197.4467861517
 10
358.157625534
 20
-198.2142298432
 10
360.1396690084
 20
-199.1050912312
 10
362.2021382782
 20
-199.8400062361
 10
364.3404995885
 20
-200.4173593553
 10
366.5500523569
 20
-200.8358814414
 10
368.8259395069
 20
-201.094652492
 10
371.1631581448
 20
-201.1931036721
 10
373.5565705565
 20
-201.1310185647
 10
376.0009155023
 20
-200.9085336463
 10
378.4908197815
 20
-200.5261379871
 10
381.020810044
 20
-199.9846721756
 10
383.5853248221
 20
-199.2853264714
 10
386.1787267559
 20
-198.429638188
 10
388.7953149851
 20
-197.4194883139
 10
391.4293376807
 20
-196.2570973779
 10
394.0750046894
 20
-194.9450205674
 10
396.7265002607
 20
-193.4861421121
  0
LWPOLYLINE
  5
B4
330
1F
100
AcDbEntity
  8
0
  6
Continuous
 62
     7
370
    25
100
AcDbPolyline
 90
      127
 70
   128
 43
0.0
 10
318.5825083554
 20
-140.6174380989
 10
321.0673770008
 20
-139.1113947324
 10
323.5460678712
 20
-137.4659771646
 10
326.0124185507
 20
-135.6852761626
 10
328.4602973027
 20
-133.7737188297
 10
330.883618315
 20
-131.7360575987
 10
333.2763568298
 20
-129.5773584164
 10
335.632564122
 20
-127.3029881492
 10
337.9463822892
 20
-124.9186012398
 10
340.2120588148
 20
-122.4301256498
 10
342.4239608699
 20
-119.8437481217
 10
344.5765893176
 20
-117.1658987975
 10
346.6645923843
 20
-114.4032352324
 10
348.6827789655
 20
-111.5626258435
 10
350.6261315312
 20
-108.6511328333
 10
352.4898186009
 20
-105.6759946321
 10
354.2692067548
 20
-102.6446079022
 10
355.9598721536
 20
-99.5645091487
 10
357.5576115367
 20
-96.4433559824
 10
359.0584526724
 20
-93.2889080819
 10
360.4586642329
 20
-90.1090079016
 10
361.7547650719
 20
-86.9115611744
 10
362.9435328784
 20
-83.7045172568
 10
364.0220121882
 20
-80.4958493651
 10
364.987521732
 20
-77.2935347533
 10
365.8376611009
 20
-74.1055348802
 10
366.5703167144
 20
-70.9397756156
 10
367.1836670753
 20
-67.804127536
 10
367.6761872979
 20
-64.7063863565
 10
368.0466528994
 20
-61.6542535498
 10
368.2941428438
 20
-58.655317199
 10
368.4180418322
 20
-55.7170331322
 10
368.4180418322
 20
-52.8467063868
 10
368.2941428438
 20
-50.0514730472
 10
368.0466528994
 20
-47.3382825039
 10
367.6761872979
 20
-44.7138801761
 10
367.1836670753
 20
-42.1847907415
 10
366.5703167144
 20
-39.757301915
 10
365.8376611009
 20
-37.4374488162
 10
364.987521732
 20
-35.2309989655
 10
364.0220121882
 20
-33.1434379448
 10
362.9435328784
 20
-31.1799557598
 10
361.7547650719
 20
-29.3454339365
 10
360.4586642329
 20
-27.6444333852
 10
359.0584526724
 20
-26.0811830614
 10
357.5576115367
 20
-24.6595694517
 10
355.9598721536
 20
-23.3831269114
 10
354.2692067548
 20
-22.2550288779
 10
352.4898186009
 20
-21.2780799805
 10
350.6261315312
 20
-20.4547090683
 10
348.6827789655
 20
-19.786963171
 10
346.6645923843
 20
-19.27650241
 10
344.5765893176
 20
-18.9245958714
 10
342.4239608699
 20
-18.7321184502
 10
340.2120588148
 20
-18.6995486757
 10
337.9463822892
 20
-18.8269675213
 10
335.632564122
 20
-19.1140582037
 10
333.2763568298
 20
-19.5601069704
 10
330.883618315
 20
-20.1640048737
 10
328.4602973027
 20
-20.9242505284
 10
326.0124185507
 20
-21.838953844
 10
323.5460678712
 20
-22.9058407238
 10
321.0673770008
 20
-24.1222587191
 10
318.5825083554
 20
-25.485183623
 10
316.0976397099
 20
-26.9912269894
 10
313.6189488395
 20
-28.6366445573
 10
311.15259816
 20
-30.4173455593
 10
308.704719408
 20
-32.3289028922
 10
306.2813983957
 20
-34.3665641232
 10
303.8886598809
 20
-36.5252633054
 10
301.5324525887
 20
-38.7996335727
 10
299.2186344215
 20
-41.1840204821
 10
296.9529578959
 20
-43.672496072
 10
294.7410558408
 20
-46.2588736001
 10
292.5884273931
 20
-48.9367229244
 10
290.5004243264
 20
-51.6993864894
 10
288.4822377452
 20
-54.5399958783
 10
286.5388851795
 20
-57.4514888886
 10
284.6751981098
 20
-60.4266270898
 10
282.8958099559
 20
-63.4580138197
 10
281.2051445571
 20
-66.5381125732
 10
279.607405174
 20
-69.6592657394
 10
278.1065640384
 20
-72.81371364
 10
276.7063524778
 20
-75.9936138203
 10
275.4102516388
 20
-79.1910605474
 10
274.2214838323
 20
-82.3981044651
 10
273.1430045225
 20
-85.6067723568
 10
272.1774949787
 20
-88.8090869685
 10
271.3273556098
 20
-91.9970868417
 10
270.5946999963
 20
-95.1628461062
 10
269.9813496354
 20
-98.2984941858
 10
269.4888294128
 20
-101.3962353653
 10
269.1183638114
 20
-104.448368172
 10
268.8708738669
 20
-107.4473045229
 10
268.7469748785
 20
-110.3855885896
 10
268.7469748785
 20
-113.2559153351
 10
268.8708738669
 20
-116.0511486747
 10
269.1183638114
 20
-118.764339218
 10
269.4888294128
 20
-121.3887415458
 10
269.9813496354
 20
-123.9178309803
 10
270.5946999963
 20
-126.3453198068
 10
271.3273556098
 20
-128.6651729056
 10
272.1774949787
 20
-130.8716227564
 10
273.1430045225
 20
-132.9591837771
 10
274.2214838323
 20
-134.9226659621
 10
275.4102516388
 20
-136.7571877854
 10
276.7063524778
 20
-138.4581883366
 10
278.1065640384
 20
-140.0214386604
 10
279.607405174
 20
-141.4430522702
 10
281.2051445571
 20
-142.7194948104
 10
282.8958099559
 20
-143.847592844
 10
284.6751981098
 20
-144.8245417413
 10
286.5388851795
 20
-145.6479126536
 10
288.4822377452
 20
-146.3156585509
 10
290.5004243264
 20
-146.8261193118
 10
292.5884273931
 20
-147.1780258504
 10
294.7410558408
 20
-147.3705032716
 10
296.9529578959
 20
-147.4030730462
 10
299.2186344215
 20
-147.2756542006
 10
301.5324525887
 20
-146.9885635181
 10
303.8886598809
 20
-146.5425147515
 10
306.2813983957
 20
-145.9386168481
 10
308.704719408
 20
-145.1783711934
 10
311.1525981601
 20
-144.2636678779
 10
313.6189488395
 20
-143.196780998
 10
316.0976397099
 20
-141.9803630027
 10
318.5825083554
 20
-140.6174380989
  0
ENDSEC
  0
SECTION
  2
OBJECTS
  0
DICTIONARY
  5
C
330
0
100
AcDbDictionary
281
     1
  3
ACAD_GROUP
350
D
  3
ACAD_LAYOUT
350
1A
  3
ACAD_MLINESTYLE
350
17
  3
ACAD_PLOTSETTINGS
350
19
  3
ACAD_PLOTSTYLENAME
350
E
  3
ACAD_SCALELIST
350
47
  3
DWGPROPS
350
B5
  0
DICTIONARY
  5
D
102
{ACAD_REACTORS
330
C
102
}
330
C
100
AcDbDictionary
281
     1
  0
DICTIONARY
  5
1A
102
{ACAD_REACTORS
330
C
102
}
330
C
100
AcDbDictionary
281
     1
  3
Layout1
350
1E
  3
Layout2
350
26
  3
Model
350
22
  0
DICTIONARY
  5
17
102
{ACAD_REACTORS
330
C
102
}
330
C
100
AcDbDictionary
281
     1
  3
Standard
350
18
  0
DICTIONARY
  5
19
102
{ACAD_REACTORS
330
C
102
}
330
C
100
AcDbDictionary
281
     1
  0
ACDBDICTIONARYWDFLT
  5
E
102
{ACAD_REACTORS
330
C
102
}
330
C
100
AcDbDictionary
281
     1
  3
Normal
350
F
100
AcDbDictionaryWithDefault
340
F
  0
DICTIONARY
  5
47
102
{ACAD_REACTORS
330
C
102
}
330
C
100
AcDbDictionary
281
     1
  3
A0
350
48
  3
A1
350
49
  3
A2
350
4A
  3
A3
350
4B
  3
A4
350
4C
  3
A5
350
4D
  3
A6
350
4E
  3
A7
350
4F
  3
A8
350
50
  3
A9
350
51
  3
B0
350
52
  3
B1
350
53
  3
B2
350
54
  3
B3
350
55
  3
B4
350
56
  3
B5
350
57
  3
B6
350
58
  3
B7
350
59
  3
B8
350
5A
  3
B9
350
5B
  3
C0
350
5C
  3
C1
350
5D
  3
C2
350
5E
  3
C3
350
5F
  3
C4
350
60
  3
C5
350
61
  3
C6
350
62
  3
C7
350
63
  3
C8
350
64
  3
C9
350
65
  3
D0
350
66
  3
D1
350
67
  3
D2
350
68
  0
XRECORD
  5
B5
102
{ACAD_REACTORS
330
C
102
}
330
C
100
AcDbXrecord
280
     1
  1
DWGPROPS COOKIE
  2

  3

  4

  6

  7

  8
b.kav
  9

300
=
301
=
302
=
303
=
304
=
305
=
306
=
307
=
308
=
309
=
 40
0.0
 41
2460704.335209445
 42
2460704.335209629
  1

 90
        0
  0
LAYOUT
  5
1E
102
{ACAD_REACTORS
330
1A
102
}
330
1A
100
AcDbPlotSettings
  1

  2
none_device
  4

  6

 40
0.0
 41
0.0
 42
0.0
 43
0.0
 44
0.0
 45
0.0
 46
0.0
 47
0.0
 48
0.0
 49
0.0
140
0.0
141
0.0
142
1.0
143
1.0
 70
   688
 72
     1
 73
     0
 74
     5
  7

 75
    16
147
1.0
148
0.0
149
0.0
100
AcDbLayout
  1
Layout1
 70
     1
 71
     1
 10
0.0
 20
0.0
 11
420.0
 21
297.0
 12
0.0
 22
0.0
 32
0.0
 14
1.0000000000E+20
 24
1.0000000000E+20
 34
1.0000000000E+20
 15
-1.0000000000E+20
 25
-1.0000000000E+20
 35
-1.0000000000E+20
146
0.0
 13
0.0
 23
0.0
 33
0.0
 16
1.0
 26
0.0
 36
0.0
 17
0.0
 27
1.0
 37
0.0
 76
     0
330
1B
  0
LAYOUT
  5
26
102
{ACAD_REACTORS
330
1A
102
}
330
1A
100
AcDbPlotSettings
  1

  2
none_device
  4

  6

 40
0.0
 41
0.0
 42
0.0
 43
0.0
 44
0.0
 45
0.0
 46
0.0
 47
0.0
 48
0.0
 49
0.0
140
0.0
141
0.0
142
1.0
143
1.0
 70
   688
 72
     1
 73
     0
 74
     5
  7

 75
    16
147
1.0
148
0.0
149
0.0
100
AcDbLayout
  1
Layout2
 70
     1
 71
     2
 10
0.0
 20
0.0
 11
0.0
 21
0.0
 12
0.0
 22
0.0
 32
0.0
 14
0.0
 24
0.0
 34
0.0
 15
0.0
 25
0.0
 35
0.0
146
0.0
 13
0.0
 23
0.0
 33
0.0
 16
1.0
 26
0.0
 36
0.0
 17
0.0
 27
1.0
 37
0.0
 76
     0
330
23
  0
LAYOUT
  5
22
102
{ACAD_REACTORS
330
1A
102
}
330
1A
100
AcDbPlotSettings
  1

  2
none_device
  4
Letter_(8.50_x_11.00_Inches)
  6

 40
6.35
 41
6.35
 42
6.35000508
 43
6.35000508
 44
215.9
 45
279.4
 46
0.0
 47
0.0
 48
0.0
 49
0.0
140
0.0
141
0.0
142
1.0
143
1.0
 70
  1712
 72
     1
 73
     0
 74
     0
  7

 75
     0
147
1.0
148
0.0
149
0.0
100
AcDbLayout
  1
Model
 70
     1
 71
     0
 10
0.0
 20
0.0
 11
279.4
 21
215.9
 12
0.0
 22
0.0
 32
0.0
 14
0.0
 24
0.0
 34
0.0
 15
279.4
 25
215.9
 35
0.0
146
0.0
 13
0.0
 23
0.0
 33
0.0
 16
1.0
 26
0.0
 36
0.0
 17
0.0
 27
1.0
 37
0.0
 76
     0
330
1F
331
29
  0
MLINESTYLE
  5
18
102
{ACAD_REACTORS
330
17
102
}
330
17
100
AcDbMlineStyle
  2
Standard
 70
     0
  3

 62
   256
 51
90.0
 52
90.0
 71
     2
 49
0.5
 62
   256
  6
BYLAYER
 49
-0.5
 62
   256
  6
BYLAYER
  0
ACDBPLACEHOLDER
  5
F
102
{ACAD_REACTORS
330
E
102
}
330
E
  0
SCALE
  5
48
102
{ACAD_REACTORS
330
47
102
}
330
47
100
AcDbScale
 70
     0
300
1:1
140
1.0
141
1.0
290
     1
  0
SCALE
  5
49
102
{ACAD_REACTORS
330
47
102
}
330
47
100
AcDbScale
 70
     0
300
1:2
140
1.0
141
2.0
290
     0
  0
SCALE
  5
4A
102
{ACAD_REACTORS
330
47
102
}
330
47
100
AcDbScale
 70
     0
300
1:4
140
1.0
141
4.0
290
     0
  0
SCALE
  5
4B
102
{ACAD_REACTORS
330
47
102
}
330
47
100
AcDbScale
 70
     0
300
1:5
140
1.0
141
5.0
290
     0
  0
SCALE
  5
4C
102
{ACAD_REACTORS
330
47
102
}
330
47
100
AcDbScale
 70
     0
300
1:8
140
1.0
141
8.0
290
     0
  0
SCALE
  5
4D
102
{ACAD_REACTORS
330
47
102
}
330
47
100
AcDbScale
 70
     0
300
1:10
140
1.0
141
10.0
290
     0
  0
SCALE
  5
4E
102
{ACAD_REACTORS
330
47
102
}
330
47
100
AcDbScale
 70
     0
300
1:16
140
1.0
141
16.0
290
     0
  0
SCALE
  5
4F
102
{ACAD_REACTORS
330
47
102
}
330
47
100
AcDbScale
 70
     0
300
1:20
140
1.0
141
20.0
290
     0
  0
SCALE
  5
50
102
{ACAD_REACTORS
330
47
102
}
330
47
100
AcDbScale
 70
     0
300
1:30
140
1.0
141
30.0
290
     0
  0
SCALE
  5
51
102
{ACAD_REACTORS
330
47
102
}
330
47
100
AcDbScale
 70
     0
300
1:40
140
1.0
141
40.0
290
     0
  0
SCALE
  5
52
102
{ACAD_REACTORS
330
47
102
}
330
47
100
AcDbScale
 70
     0
300
1:50
140
1.0
141
50.0
290
     0
  0
SCALE
  5
53
102
{ACAD_REACTORS
330
47
102
}
330
47
100
AcDbScale
 70
     0
300
1:100
140
1.0
141
100.0
290
     0
  0
SCALE
  5
54
102
{ACAD_REACTORS
330
47
102
}
330
47
100
AcDbScale
 70
     0
300
2:1
140
2.0
141
1.0
290
     0
  0
SCALE
  5
55
102
{ACAD_REACTORS
330
47
102
}
330
47
100
AcDbScale
 70
     0
300
4:1
140
4.0
141
1.0
290
     0
  0
SCALE
  5
56
102
{ACAD_REACTORS
330
47
102
}
330
47
100
AcDbScale
 70
     0
300
8:1
140
8.0
141
1.0
290
     0
  0
SCALE
  5
57
102
{ACAD_REACTORS
330
47
102
}
330
47
100
AcDbScale
 70
     0
300
10:1
140
10.0
141
1.0
290
     0
  0
SCALE
  5
58
102
{ACAD_REACTORS
330
47
102
}
330
47
100
AcDbScale
 70
     0
300
100:1
140
100.0
141
1.0
290
     0
  0
SCALE
  5
59
102
{ACAD_REACTORS
330
47
102
}
330
47
100
AcDbScale
 70
     0
300
1/128" = 1'-0"
140
0.0078125
141
12.0
290
     0
  0
SCALE
  5
5A
102
{ACAD_REACTORS
330
47
102
}
330
47
100
AcDbScale
 70
     0
300
1/64" = 1'-0"
140
0.015625
141
12.0
290
     0
  0
SCALE
  5
5B
102
{ACAD_REACTORS
330
47
102
}
330
47
100
AcDbScale
 70
     0
300
1/32" = 1'-0"
140
0.03125
141
12.0
290
     0
  0
SCALE
  5
5C
102
{ACAD_REACTORS
330
47
102
}
330
47
100
AcDbScale
 70
     0
300
1/16" = 1'-0"
140
0.0625
141
12.0
290
     0
  0
SCALE
  5
5D
102
{ACAD_REACTORS
330
47
102
}
330
47
100
AcDbScale
 70
     0
300
3/32" = 1'-0"
140
0.09375
141
12.0
290
     0
  0
SCALE
  5
5E
102
{ACAD_REACTORS
330
47
102
}
330
47
100
AcDbScale
 70
     0
300
1/8" = 1'-0"
140
0.125
141
12.0
290
     0
  0
SCALE
  5
5F
102
{ACAD_REACTORS
330
47
102
}
330
47
100
AcDbScale
 70
     0
300
3/16" = 1'-0"
140
0.1875
141
12.0
290
     0
  0
SCALE
  5
60
102
{ACAD_REACTORS
330
47
102
}
330
47
100
AcDbScale
 70
     0
300
1/4" = 1'-0"
140
0.25
141
12.0
290
     0
  0
SCALE
  5
61
102
{ACAD_REACTORS
330
47
102
}
330
47
100
AcDbScale
 70
     0
300
3/8" = 1'-0"
140
0.375
141
12.0
290
     0
  0
SCALE
  5
62
102
{ACAD_REACTORS
330
47
102
}
330
47
100
AcDbScale
 70
     0
300
1/2" = 1'-0"
140
0.5
141
12.0
290
     0
  0
SCALE
  5
63
102
{ACAD_REACTORS
330
47
102
}
330
47
100
AcDbScale
 70
     0
300
3/4" = 1'-0"
140
0.75
141
12.0
290
     0
  0
SCALE
  5
64
102
{ACAD_REACTORS
330
47
102
}
330
47
100
AcDbScale
 70
     0
300
1" = 1'-0"
140
1.0
141
12.0
290
     0
  0
SCALE
  5
65
102
{ACAD_REACTORS
330
47
102
}
330
47
100
AcDbScale
 70
     0
300
1-1/2" = 1'-0"
140
1.5
141
12.0
290
     0
  0
SCALE
  5
66
102
{ACAD_REACTORS
330
47
102
}
330
47
100
AcDbScale
 70
     0
300
3" = 1'-0"
140
3.0
141
12.0
290
     0
  0
SCALE
  5
67
102
{ACAD_REACTORS
330
47
102
}
330
47
100
AcDbScale
 70
     0
300
6" = 1'-0"
140
6.0
141
12.0
290
     0
  0
SCALE
  5
68
102
{ACAD_REACTORS
330
47
102
}
330
47
100
AcDbScale
 70
     0
300
1'-0" = 1'-0"
140
12.0
141
12.0
290
     0
  0
ENDSEC
  0
EOF
